ISO-10303-21;
HEADER;
FILE_DESCRIPTION (( 'STEP AP214' ),
    '1' );
FILE_NAME ('SK-10484- FOCUS-SM2.STEP',
    '2024-06-10T14:16:09',
    ( '' ),
    ( '' ),
    'SwSTEP 2.0',
    'SolidWorks 2020',
    '' );
FILE_SCHEMA (( 'AUTOMOTIVE_DESIGN' ));
ENDSEC;

DATA;
#1 = AXIS2_PLACEMENT_3D ( 'NONE', #345, #246, #382 ) ;
#2 = DIRECTION ( 'NONE',  ( -1.000000000000000000, 0.000000000000000000, 0.000000000000000000 ) ) ;
#3 = ADVANCED_FACE ( 'NONE', ( #211, #11 ), #303, .F. ) ;
#4 = FACE_OUTER_BOUND ( 'NONE', #375, .T. ) ;
#5 = COLOUR_RGB ( '',0.7921568627450980005, 0.8196078431372548767, 0.9333333333333333481 ) ;
#6 = CARTESIAN_POINT ( 'NONE',  ( 25.50159999999999982, 0.000000000000000000, -4.569999999999997620 ) ) ;
#7 = ORIENTED_EDGE ( 'NONE', *, *, #229, .T. ) ;
#8 = CARTESIAN_POINT ( 'NONE',  ( 25.50159999999999982, 0.000000000000000000, -6.929999999999998828 ) ) ;
#9 = EDGE_LOOP ( 'NONE', ( #269 ) ) ;
#10 = CARTESIAN_POINT ( 'NONE',  ( 0.000000000000000000, 20.19000000000000128, -3.050000000000000711 ) ) ;
#11 = FACE_OUTER_BOUND ( 'NONE', #47, .T. ) ;
#12 = CARTESIAN_POINT ( 'NONE',  ( -19.30000000000001137, 0.000000000000000000, 0.000000000000000000 ) ) ;
#13 = EDGE_LOOP ( 'NONE', ( #170 ) ) ;
#14 = AXIS2_PLACEMENT_3D ( 'NONE', #101, #188, #387 ) ;
#15 = CIRCLE ( 'NONE', #90, 21.00000000000000000 ) ;
#16 =( LENGTH_UNIT ( ) NAMED_UNIT ( * ) SI_UNIT ( .MILLI., .METRE. ) );
#17 = EDGE_CURVE ( 'NONE', #330, #330, #132, .T. ) ;
#18 = EDGE_LOOP ( 'NONE', ( #79 ) ) ;
#19 = CYLINDRICAL_SURFACE ( 'NONE', #125, 27.94000000000000128 ) ;
#20 = PRESENTATION_STYLE_ASSIGNMENT (( #53 ) ) ;
#21 = DIRECTION ( 'NONE',  ( -0.000000000000000000, -0.000000000000000000, -1.000000000000000000 ) ) ;
#22 = EDGE_CURVE ( 'NONE', #142, #142, #255, .T. ) ;
#23 = ADVANCED_FACE ( 'NONE', ( #94, #153 ), #159, .F. ) ;
#24 = CIRCLE ( 'NONE', #131, 19.05000000000000426 ) ;
#25 =( NAMED_UNIT ( * ) PLANE_ANGLE_UNIT ( ) SI_UNIT ( $, .RADIAN. ) );
#26 = VERTEX_POINT ( 'NONE', #156 ) ;
#27 = CARTESIAN_POINT ( 'NONE',  ( 0.000000000000000000, 0.000000000000000000, -2.290000000000000480 ) ) ;
#28 = DIRECTION ( 'NONE',  ( 0.000000000000000000, -0.000000000000000000, 1.000000000000000000 ) ) ;
#29 = CARTESIAN_POINT ( 'NONE',  ( 0.000000000000000000, 0.000000000000000000, 30.78524545694153502 ) ) ;
#30 = CARTESIAN_POINT ( 'NONE',  ( 0.000000000000000000, 0.000000000000000000, -7.120000000000008100 ) ) ;
#31 = FACE_OUTER_BOUND ( 'NONE', #271, .T. ) ;
#32 = DIRECTION ( 'NONE',  ( -0.000000000000000000, -0.000000000000000000, 1.000000000000000000 ) ) ;
#33 = EDGE_CURVE ( 'NONE', #270, #270, #178, .T. ) ;
#34 = CIRCLE ( 'NONE', #14, 19.05000000000000426 ) ;
#35 = FACE_BOUND ( 'NONE', #213, .T. ) ;
#36 = CYLINDRICAL_SURFACE ( 'NONE', #319, 20.19000000000000128 ) ;
#37 = EDGE_LOOP ( 'NONE', ( #82 ) ) ;
#38 = STYLED_ITEM ( 'NONE', ( #20 ), #201 ) ;
#39 = FACE_BOUND ( 'NONE', #297, .T. ) ;
#40 = EDGE_LOOP ( 'NONE', ( #109 ) ) ;
#41 = CIRCLE ( 'NONE', #164, 27.69000000000000483 ) ;
#42 = DIRECTION ( 'NONE',  ( 1.000000000000000000, 0.000000000000000000, 0.000000000000000000 ) ) ;
#43 = ORIENTED_EDGE ( 'NONE', *, *, #362, .T. ) ;
#44 = CARTESIAN_POINT ( 'NONE',  ( 0.000000000000000000, 0.000000000000000000, -7.370000000000000995 ) ) ;
#45 = ORIENTED_EDGE ( 'NONE', *, *, #33, .T. ) ;
#46 = DIRECTION ( 'NONE',  ( 0.000000000000000000, 0.000000000000000000, -1.000000000000000000 ) ) ;
#47 = EDGE_LOOP ( 'NONE', ( #239 ) ) ;
#48 = EDGE_CURVE ( 'NONE', #81, #81, #215, .T. ) ;
#49 = ORIENTED_EDGE ( 'NONE', *, *, #391, .F. ) ;
#50 = CIRCLE ( 'NONE', #198, 19.30000000000000426 ) ;
#51 = FILL_AREA_STYLE_COLOUR ( '', #331 ) ;
#52 = DIRECTION ( 'NONE',  ( 1.000000000000000000, 0.000000000000000000, 0.000000000000000000 ) ) ;
#53 = SURFACE_STYLE_USAGE ( .BOTH. , #346 ) ;
#54 = ADVANCED_FACE ( 'NONE', ( #58, #311 ), #19, .T. ) ;
#55 = ADVANCED_FACE ( 'NONE', ( #91, #185 ), #165, .F. ) ;
#56 = FACE_BOUND ( 'NONE', #209, .T. ) ;
#57 = AXIS2_PLACEMENT_3D ( 'NONE', #212, #112, #202 ) ;
#58 = FACE_OUTER_BOUND ( 'NONE', #237, .T. ) ;
#59 =( GEOMETRIC_REPRESENTATION_CONTEXT ( 3 ) GLOBAL_UNCERTAINTY_ASSIGNED_CONTEXT ( ( #262 ) ) GLOBAL_UNIT_ASSIGNED_CONTEXT ( ( #323, #390, #260 ) ) REPRESENTATION_CONTEXT ( 'NONE', 'WORKASPACE' ) );
#60 = AXIS2_PLACEMENT_3D ( 'NONE', #187, #180, #411 ) ;
#61 = VERTEX_POINT ( 'NONE', #254 ) ;
#62 = FACE_BOUND ( 'NONE', #305, .T. ) ;
#63 = DIRECTION ( 'NONE',  ( -0.000000000000000000, -0.000000000000000000, -1.000000000000000000 ) ) ;
#64 = ADVANCED_FACE ( 'NONE', ( #347, #56 ), #123, .F. ) ;
#65 = FACE_OUTER_BOUND ( 'NONE', #114, .T. ) ;
#66 = AXIS2_PLACEMENT_3D ( 'NONE', #30, #161, #102 ) ;
#67 = SURFACE_SIDE_STYLE ('',( #354 ) ) ;
#68 = ADVANCED_FACE ( 'NONE', ( #62, #119 ), #314, .F. ) ;
#69 = EDGE_CURVE ( 'NONE', #140, #140, #50, .T. ) ;
#70 = DIRECTION ( 'NONE',  ( 0.000000000000000000, 0.000000000000000000, -1.000000000000000000 ) ) ;
#71 = FACE_OUTER_BOUND ( 'NONE', #399, .T. ) ;
#72 = FILL_AREA_STYLE_COLOUR ( '', #5 ) ;
#73 = EDGE_LOOP ( 'NONE', ( #49 ) ) ;
#74 = FACE_OUTER_BOUND ( 'NONE', #235, .T. ) ;
#75 = EDGE_LOOP ( 'NONE', ( #141 ) ) ;
#76 = PRESENTATION_LAYER_ASSIGNMENT (  '', '', ( #38 ) ) ;
#77 = APPLICATION_CONTEXT ( 'automotive_design' ) ;
#78 = VERTEX_POINT ( 'NONE', #167 ) ;
#79 = ORIENTED_EDGE ( 'NONE', *, *, #242, .T. ) ;
#80 = AXIS2_PLACEMENT_3D ( 'NONE', #226, #392, #134 ) ;
#81 = VERTEX_POINT ( 'NONE', #238 ) ;
#82 = ORIENTED_EDGE ( 'NONE', *, *, #172, .F. ) ;
#83 = VERTEX_POINT ( 'NONE', #210 ) ;
#84 = EDGE_CURVE ( 'NONE', #83, #83, #15, .T. ) ;
#85 = ORIENTED_EDGE ( 'NONE', *, *, #322, .T. ) ;
#86 = FACE_OUTER_BOUND ( 'NONE', #143, .T. ) ;
#87 = EDGE_LOOP ( 'NONE', ( #206 ) ) ;
#88 = DIRECTION ( 'NONE',  ( 0.000000000000000000, 0.000000000000000000, 1.000000000000000000 ) ) ;
#89 = CARTESIAN_POINT ( 'NONE',  ( 0.000000000000000000, 0.000000000000000000, -7.370000000000001883 ) ) ;
#90 = AXIS2_PLACEMENT_3D ( 'NONE', #27, #408, #318 ) ;
#91 = FACE_BOUND ( 'NONE', #276, .T. ) ;
#92 = CARTESIAN_POINT ( 'NONE',  ( 0.000000000000000000, 0.000000000000000000, 0.000000000000000000 ) ) ;
#93 = SHAPE_DEFINITION_REPRESENTATION ( #265, #201 ) ;
#94 = FACE_OUTER_BOUND ( 'NONE', #327, .T. ) ;
#95 = AXIS2_PLACEMENT_3D ( 'NONE', #358, #32, #163 ) ;
#96 = FACE_OUTER_BOUND ( 'NONE', #292, .T. ) ;
#97 = DIRECTION ( 'NONE',  ( 1.000000000000000000, 0.000000000000000000, 0.000000000000000000 ) ) ;
#98 = DIRECTION ( 'NONE',  ( -1.000000000000000000, 0.000000000000000000, 0.000000000000000000 ) ) ;
#99 = AXIS2_PLACEMENT_3D ( 'NONE', #340, #363, #138 ) ;
#100 = EDGE_CURVE ( 'NONE', #78, #78, #326, .T. ) ;
#101 = CARTESIAN_POINT ( 'NONE',  ( 0.000000000000000000, 0.000000000000000000, -0.2500000000000036637 ) ) ;
#102 = DIRECTION ( 'NONE',  ( 1.000000000000000000, 0.000000000000000000, 0.000000000000000000 ) ) ;
#103 = AXIS2_PLACEMENT_3D ( 'NONE', #92, #349, #157 ) ;
#104 = FACE_OUTER_BOUND ( 'NONE', #339, .T. ) ;
#105 = ORIENTED_EDGE ( 'NONE', *, *, #100, .T. ) ;
#106 = PLANE ( 'NONE',  #261 ) ;
#107 = ORIENTED_EDGE ( 'NONE', *, *, #367, .T. ) ;
#108 = DIRECTION ( 'NONE',  ( 1.000000000000000000, 0.000000000000000000, 0.000000000000000000 ) ) ;
#109 = ORIENTED_EDGE ( 'NONE', *, *, #33, .F. ) ;
#110 = ADVANCED_FACE ( 'NONE', ( #96, #225 ), #252, .F. ) ;
#111 = CIRCLE ( 'NONE', #99, 21.00000000000000000 ) ;
#112 = DIRECTION ( 'NONE',  ( 0.000000000000000000, 0.000000000000000000, 1.000000000000000000 ) ) ;
#113 = UNCERTAINTY_MEASURE_WITH_UNIT (LENGTH_MEASURE( 1.000000000000000082E-05 ), #182, 'distance_accuracy_value', 'NONE');
#114 = EDGE_LOOP ( 'NONE', ( #43 ) ) ;
#115 = APPLICATION_CONTEXT ( 'automotive_design' ) ;
#116 = FACE_BOUND ( 'NONE', #40, .T. ) ;
#117 = ORIENTED_EDGE ( 'NONE', *, *, #69, .F. ) ;
#118 = VERTEX_POINT ( 'NONE', #251 ) ;
#119 = FACE_OUTER_BOUND ( 'NONE', #273, .T. ) ;
#120 = CARTESIAN_POINT ( 'NONE',  ( 0.000000000000000000, 0.000000000000000000, -7.370000000000000995 ) ) ;
#121 = DIRECTION ( 'NONE',  ( -0.000000000000000000, -0.000000000000000000, 1.000000000000000000 ) ) ;
#122 = CARTESIAN_POINT ( 'NONE',  ( 19.05000000000000426, 0.000000000000000000, -3.560000000000000497 ) ) ;
#123 = PLANE ( 'NONE',  #383 ) ;
#124 = CARTESIAN_POINT ( 'NONE',  ( 0.000000000000000000, 0.000000000000000000, -4.569999999999997620 ) ) ;
#125 = AXIS2_PLACEMENT_3D ( 'NONE', #404, #378, #352 ) ;
#126 = PLANE ( 'NONE',  #222 ) ;
#127 = DIRECTION ( 'NONE',  ( -0.000000000000000000, -0.000000000000000000, 1.000000000000000000 ) ) ;
#128 = EDGE_CURVE ( 'NONE', #268, #268, #284, .T. ) ;
#129 =( GEOMETRIC_REPRESENTATION_CONTEXT ( 3 ) GLOBAL_UNCERTAINTY_ASSIGNED_CONTEXT ( ( #192 ) ) GLOBAL_UNIT_ASSIGNED_CONTEXT ( ( #16, #150, #181 ) ) REPRESENTATION_CONTEXT ( 'NONE', 'WORKASPACE' ) );
#130 = ADVANCED_FACE ( 'NONE', ( #282, #413 ), #344, .T. ) ;
#131 = AXIS2_PLACEMENT_3D ( 'NONE', #236, #342, #272 ) ;
#132 = CIRCLE ( 'NONE', #1, 27.94000000000000128 ) ;
#133 = PRODUCT ( 'SK-10484- FOCUS-SM2', 'SK-10484- FOCUS-SM2', '', ( #315 ) ) ;
#134 = DIRECTION ( 'NONE',  ( -1.000000000000000000, 0.000000000000000000, 0.000000000000000000 ) ) ;
#135 = DIRECTION ( 'NONE',  ( -0.000000000000000000, -0.000000000000000000, -1.000000000000000000 ) ) ;
#136 = ORIENTED_EDGE ( 'NONE', *, *, #229, .F. ) ;
#137 = ADVANCED_FACE ( 'NONE', ( #31, #199 ), #189, .T. ) ;
#138 = DIRECTION ( 'NONE',  ( -1.000000000000000000, 0.000000000000000000, 0.000000000000000000 ) ) ;
#139 = AXIS2_PLACEMENT_3D ( 'NONE', #290, #194, #2 ) ;
#140 = VERTEX_POINT ( 'NONE', #372 ) ;
#141 = ORIENTED_EDGE ( 'NONE', *, *, #338, .T. ) ;
#142 = VERTEX_POINT ( 'NONE', #8 ) ;
#143 = EDGE_LOOP ( 'NONE', ( #105 ) ) ;
#144 = PRODUCT_RELATED_PRODUCT_CATEGORY ( 'part', '', ( #133 ) ) ;
#145 = DIRECTION ( 'NONE',  ( -0.000000000000000000, -0.000000000000000000, 1.000000000000000000 ) ) ;
#146 = ORIENTED_EDGE ( 'NONE', *, *, #84, .F. ) ;
#147 = AXIS2_PLACEMENT_3D ( 'NONE', #120, #266, #234 ) ;
#148 = VERTEX_POINT ( 'NONE', #275 ) ;
#149 = EDGE_LOOP ( 'NONE', ( #193 ) ) ;
#150 =( NAMED_UNIT ( * ) PLANE_ANGLE_UNIT ( ) SI_UNIT ( $, .RADIAN. ) );
#151 = ORIENTED_EDGE ( 'NONE', *, *, #100, .F. ) ;
#152 =( GEOMETRIC_REPRESENTATION_CONTEXT ( 3 ) GLOBAL_UNCERTAINTY_ASSIGNED_CONTEXT ( ( #113 ) ) GLOBAL_UNIT_ASSIGNED_CONTEXT ( ( #182, #25, #244 ) ) REPRESENTATION_CONTEXT ( 'NONE', 'WORKASPACE' ) );
#153 = FACE_OUTER_BOUND ( 'NONE', #149, .T. ) ;
#154 = VERTEX_POINT ( 'NONE', #306 ) ;
#155 = DIRECTION ( 'NONE',  ( -0.000000000000000000, -0.000000000000000000, 1.000000000000000000 ) ) ;
#156 = CARTESIAN_POINT ( 'NONE',  ( 26.34999999999999787, 0.000000000000000000, -3.810000000000000941 ) ) ;
#157 = DIRECTION ( 'NONE',  ( -1.000000000000000000, 0.000000000000000000, 0.000000000000000000 ) ) ;
#158 = CARTESIAN_POINT ( 'NONE',  ( 0.000000000000000000, 21.00000000000000000, -2.290000000000000480 ) ) ;
#159 = CYLINDRICAL_SURFACE ( 'NONE', #360, 19.05000000000000426 ) ;
#160 = AXIS2_PLACEMENT_3D ( 'NONE', #286, #359, #98 ) ;
#161 = DIRECTION ( 'NONE',  ( -0.000000000000000000, -0.000000000000000000, 1.000000000000000000 ) ) ;
#162 = FILL_AREA_STYLE ('',( #72 ) ) ;
#163 = DIRECTION ( 'NONE',  ( 1.000000000000000000, 0.000000000000000000, 0.000000000000000000 ) ) ;
#164 = AXIS2_PLACEMENT_3D ( 'NONE', #44, #46, #42 ) ;
#165 = CONICAL_SURFACE ( 'NONE', #412, 25.75563411844343520, 0.5235987755982968173 ) ;
#166 = CARTESIAN_POINT ( 'NONE',  ( 0.000000000000000000, 0.000000000000000000, -3.810000000000000941 ) ) ;
#167 = CARTESIAN_POINT ( 'NONE',  ( 26.34999999999999787, 0.000000000000000000, -4.569999999999997620 ) ) ;
#168 = MANIFOLD_SOLID_BREP ( 'Chanfrein6', #313 ) ;
#169 = CARTESIAN_POINT ( 'NONE',  ( 0.000000000000000000, 0.000000000000000000, 30.78524545694153502 ) ) ;
#170 = ORIENTED_EDGE ( 'NONE', *, *, #128, .F. ) ;
#171 = FACE_OUTER_BOUND ( 'NONE', #37, .T. ) ;
#172 = EDGE_CURVE ( 'NONE', #302, #302, #197, .T. ) ;
#173 = EDGE_LOOP ( 'NONE', ( #366 ) ) ;
#174 = DIRECTION ( 'NONE',  ( 1.000000000000000000, 0.000000000000000000, 0.000000000000000000 ) ) ;
#175 = ORIENTED_EDGE ( 'NONE', *, *, #84, .T. ) ;
#176 = CARTESIAN_POINT ( 'NONE',  ( -20.75000000000000000, 0.000000000000000000, 0.000000000000000000 ) ) ;
#177 = ORIENTED_EDGE ( 'NONE', *, *, #338, .F. ) ;
#178 = CIRCLE ( 'NONE', #60, 25.50159999999999982 ) ;
#179 = EDGE_LOOP ( 'NONE', ( #203 ) ) ;
#180 = DIRECTION ( 'NONE',  ( -0.000000000000000000, -0.000000000000000000, 1.000000000000000000 ) ) ;
#181 =( NAMED_UNIT ( * ) SI_UNIT ( $, .STERADIAN. ) SOLID_ANGLE_UNIT ( ) );
#182 =( LENGTH_UNIT ( ) NAMED_UNIT ( * ) SI_UNIT ( .MILLI., .METRE. ) );
#183 = DIRECTION ( 'NONE',  ( 1.000000000000000000, 0.000000000000000000, 0.000000000000000000 ) ) ;
#184 = PRESENTATION_LAYER_ASSIGNMENT (  '', '', ( #304 ) ) ;
#185 = FACE_OUTER_BOUND ( 'NONE', #73, .T. ) ;
#186 = CARTESIAN_POINT ( 'NONE',  ( 0.000000000000000000, 27.94000000000000128, -7.370000000000000995 ) ) ;
#187 = CARTESIAN_POINT ( 'NONE',  ( 0.000000000000000000, 0.000000000000000000, -4.569999999999997620 ) ) ;
#188 = DIRECTION ( 'NONE',  ( 0.000000000000000000, 0.000000000000000000, 1.000000000000000000 ) ) ;
#189 = CONICAL_SURFACE ( 'NONE', #80, 20.75000000000000000, 0.5235987755982972613 ) ;
#190 = AXIS2_PLACEMENT_3D ( 'NONE', #186, #283, #183 ) ;
#191 = FACE_OUTER_BOUND ( 'NONE', #295, .T. ) ;
#192 = UNCERTAINTY_MEASURE_WITH_UNIT (LENGTH_MEASURE( 1.000000000000000082E-05 ), #16, 'distance_accuracy_value', 'NONE');
#193 = ORIENTED_EDGE ( 'NONE', *, *, #204, .T. ) ;
#194 = DIRECTION ( 'NONE',  ( -0.000000000000000000, -0.000000000000000000, 1.000000000000000000 ) ) ;
#195 = ORIENTED_EDGE ( 'NONE', *, *, #22, .F. ) ;
#196 = ADVANCED_FACE ( 'NONE', ( #321, #65 ), #36, .T. ) ;
#197 = CIRCLE ( 'NONE', #350, 19.30000000000001137 ) ;
#198 = AXIS2_PLACEMENT_3D ( 'NONE', #256, #155, #280 ) ;
#199 = FACE_BOUND ( 'NONE', #13, .T. ) ;
#200 = ORIENTED_EDGE ( 'NONE', *, *, #17, .F. ) ;
#201 = ADVANCED_BREP_SHAPE_REPRESENTATION ( 'SK-10484- FOCUS-SM2', ( #168, #348 ), #152 ) ;
#202 = DIRECTION ( 'NONE',  ( 1.000000000000000000, 0.000000000000000000, 0.000000000000000000 ) ) ;
#203 = ORIENTED_EDGE ( 'NONE', *, *, #69, .T. ) ;
#204 = EDGE_CURVE ( 'NONE', #148, #148, #34, .T. ) ;
#205 = DIRECTION ( 'NONE',  ( -0.000000000000000000, -0.000000000000000000, 1.000000000000000000 ) ) ;
#206 = ORIENTED_EDGE ( 'NONE', *, *, #322, .F. ) ;
#207 = AXIS2_PLACEMENT_3D ( 'NONE', #396, #145, #174 ) ;
#208 = CARTESIAN_POINT ( 'NONE',  ( 0.000000000000000000, 0.000000000000000000, 30.78524545694153502 ) ) ;
#209 = EDGE_LOOP ( 'NONE', ( #395 ) ) ;
#210 = CARTESIAN_POINT ( 'NONE',  ( 21.00000000000000000, 0.000000000000000000, -2.290000000000000480 ) ) ;
#211 = FACE_BOUND ( 'NONE', #179, .T. ) ;
#212 = CARTESIAN_POINT ( 'NONE',  ( 0.000000000000000000, 0.000000000000000000, -0.2500000000000036637 ) ) ;
#213 = EDGE_LOOP ( 'NONE', ( #341 ) ) ;
#214 = ADVANCED_FACE ( 'NONE', ( #285, #386 ), #126, .F. ) ;
#215 = CIRCLE ( 'NONE', #351, 20.19000000000000128 ) ;
#216 = DIRECTION ( 'NONE',  ( -0.000000000000000000, -0.000000000000000000, 1.000000000000000000 ) ) ;
#217 = FILL_AREA_STYLE ('',( #51 ) ) ;
#218 = DIRECTION ( 'NONE',  ( 1.000000000000000000, 0.000000000000000000, 0.000000000000000000 ) ) ;
#219 = PRODUCT_DEFINITION_FORMATION_WITH_SPECIFIED_SOURCE ( 'ANY', '', #133, .NOT_KNOWN. ) ;
#220 = PRODUCT_DEFINITION ( 'UNKNOWN', '', #219, #287 ) ;
#221 = DIRECTION ( 'NONE',  ( 1.000000000000000000, 0.000000000000000000, 0.000000000000000000 ) ) ;
#222 = AXIS2_PLACEMENT_3D ( 'NONE', #257, #70, #324 ) ;
#223 = DIRECTION ( 'NONE',  ( 1.000000000000000000, 0.000000000000000000, 0.000000000000000000 ) ) ;
#224 = CARTESIAN_POINT ( 'NONE',  ( 20.19000000000000128, 0.000000000000000000, -3.050000000000004263 ) ) ;
#225 = FACE_OUTER_BOUND ( 'NONE', #18, .T. ) ;
#226 = CARTESIAN_POINT ( 'NONE',  ( 0.000000000000000000, 0.000000000000000000, 0.000000000000000000 ) ) ;
#227 = CARTESIAN_POINT ( 'NONE',  ( 0.000000000000000000, 0.000000000000000000, 30.78524545694153502 ) ) ;
#228 = CARTESIAN_POINT ( 'NONE',  ( 0.000000000000000000, 0.000000000000000000, -3.810000000000000941 ) ) ;
#229 = EDGE_CURVE ( 'NONE', #401, #401, #247, .T. ) ;
#230 = DIRECTION ( 'NONE',  ( 1.000000000000000000, 0.000000000000000000, 0.000000000000000000 ) ) ;
#231 = DIRECTION ( 'NONE',  ( 0.000000000000000000, 0.000000000000000000, -1.000000000000000000 ) ) ;
#232 = DIRECTION ( 'NONE',  ( -1.000000000000000000, 0.000000000000000000, -0.000000000000000000 ) ) ;
#233 = ORIENTED_EDGE ( 'NONE', *, *, #362, .F. ) ;
#234 = DIRECTION ( 'NONE',  ( 1.000000000000000000, 0.000000000000000000, 0.000000000000000000 ) ) ;
#235 = EDGE_LOOP ( 'NONE', ( #175 ) ) ;
#236 = CARTESIAN_POINT ( 'NONE',  ( 0.000000000000000000, 0.000000000000000000, -3.560000000000000497 ) ) ;
#237 = EDGE_LOOP ( 'NONE', ( #7 ) ) ;
#238 = CARTESIAN_POINT ( 'NONE',  ( 20.19000000000000128, 0.000000000000000000, -2.290000000000000480 ) ) ;
#239 = ORIENTED_EDGE ( 'NONE', *, *, #242, .F. ) ;
#240 = SURFACE_STYLE_FILL_AREA ( #217 ) ;
#241 = DIRECTION ( 'NONE',  ( 0.000000000000000000, 0.000000000000000000, -1.000000000000000000 ) ) ;
#242 = EDGE_CURVE ( 'NONE', #26, #26, #274, .T. ) ;
#243 = EDGE_LOOP ( 'NONE', ( #397 ) ) ;
#244 =( NAMED_UNIT ( * ) SI_UNIT ( $, .STERADIAN. ) SOLID_ANGLE_UNIT ( ) );
#245 = VERTEX_POINT ( 'NONE', #122 ) ;
#246 = DIRECTION ( 'NONE',  ( 0.000000000000000000, 0.000000000000000000, -1.000000000000000000 ) ) ;
#247 = CIRCLE ( 'NONE', #66, 27.94000000000000128 ) ;
#248 = CARTESIAN_POINT ( 'NONE',  ( 27.94000000000000128, 0.000000000000000000, -7.120000000000008100 ) ) ;
#249 = CARTESIAN_POINT ( 'NONE',  ( 0.000000000000000000, 0.000000000000000000, 30.78524545694153502 ) ) ;
#250 = ADVANCED_FACE ( 'NONE', ( #357, #191 ), #355, .T. ) ;
#251 = CARTESIAN_POINT ( 'NONE',  ( 27.69000000000000483, 0.000000000000000000, -7.370000000000000995 ) ) ;
#252 = CYLINDRICAL_SURFACE ( 'NONE', #389, 26.34999999999999787 ) ;
#253 = DIRECTION ( 'NONE',  ( -0.000000000000000000, -0.000000000000000000, 1.000000000000000000 ) ) ;
#254 = CARTESIAN_POINT ( 'NONE',  ( -21.00000000000000000, 0.000000000000000000, -0.4330127018922214077 ) ) ;
#255 = CIRCLE ( 'NONE', #371, 25.50159999999999982 ) ;
#256 = CARTESIAN_POINT ( 'NONE',  ( 0.000000000000000000, 0.000000000000000000, -3.809999999999999609 ) ) ;
#257 = CARTESIAN_POINT ( 'NONE',  ( 0.000000000000000000, 21.00000000000000000, 0.000000000000000000 ) ) ;
#258 = EDGE_CURVE ( 'NONE', #379, #379, #407, .T. ) ;
#259 = DIRECTION ( 'NONE',  ( -1.000000000000000000, 0.000000000000000000, 0.000000000000000000 ) ) ;
#260 =( NAMED_UNIT ( * ) SI_UNIT ( $, .STERADIAN. ) SOLID_ANGLE_UNIT ( ) );
#261 = AXIS2_PLACEMENT_3D ( 'NONE', #294, #333, #393 ) ;
#262 = UNCERTAINTY_MEASURE_WITH_UNIT (LENGTH_MEASURE( 1.000000000000000082E-05 ), #323, 'distance_accuracy_value', 'NONE');
#263 = CARTESIAN_POINT ( 'NONE',  ( 0.000000000000000000, 0.000000000000000000, 0.000000000000000000 ) ) ;
#264 = DIRECTION ( 'NONE',  ( -1.000000000000000000, 0.000000000000000000, 0.000000000000000000 ) ) ;
#265 = PRODUCT_DEFINITION_SHAPE ( 'NONE', 'NONE',  #220 ) ;
#266 = DIRECTION ( 'NONE',  ( -0.000000000000000000, -0.000000000000000000, 1.000000000000000000 ) ) ;
#267 = AXIS2_PLACEMENT_3D ( 'NONE', #208, #205, #108 ) ;
#268 = VERTEX_POINT ( 'NONE', #176 ) ;
#269 = ORIENTED_EDGE ( 'NONE', *, *, #48, .F. ) ;
#270 = VERTEX_POINT ( 'NONE', #6 ) ;
#271 = EDGE_LOOP ( 'NONE', ( #177 ) ) ;
#272 = DIRECTION ( 'NONE',  ( 1.000000000000000000, 0.000000000000000000, 0.000000000000000000 ) ) ;
#273 = EDGE_LOOP ( 'NONE', ( #85 ) ) ;
#274 = CIRCLE ( 'NONE', #291, 26.34999999999999787 ) ;
#275 = CARTESIAN_POINT ( 'NONE',  ( -19.05000000000000426, 0.000000000000000000, -0.2500000000000036637 ) ) ;
#276 = EDGE_LOOP ( 'NONE', ( #195 ) ) ;
#277 = ORIENTED_EDGE ( 'NONE', *, *, #172, .T. ) ;
#278 = DIRECTION ( 'NONE',  ( 1.000000000000000000, 0.000000000000000000, 0.000000000000000000 ) ) ;
#279 = AXIS2_PLACEMENT_3D ( 'NONE', #10, #241, #232 ) ;
#280 = DIRECTION ( 'NONE',  ( 1.000000000000000000, 0.000000000000000000, 0.000000000000000000 ) ) ;
#281 = CARTESIAN_POINT ( 'NONE',  ( 0.000000000000000000, 0.000000000000000000, 0.000000000000000000 ) ) ;
#282 = FACE_OUTER_BOUND ( 'NONE', #361, .T. ) ;
#283 = DIRECTION ( 'NONE',  ( 0.000000000000000000, -0.000000000000000000, 1.000000000000000000 ) ) ;
#284 = CIRCLE ( 'NONE', #103, 20.75000000000000000 ) ;
#285 = FACE_BOUND ( 'NONE', #334, .T. ) ;
#286 = CARTESIAN_POINT ( 'NONE',  ( 0.000000000000000000, 0.000000000000000000, -3.050000000000004263 ) ) ;
#287 = PRODUCT_DEFINITION_CONTEXT ( 'detailed design', #77, 'design' ) ;
#288 = CONICAL_SURFACE ( 'NONE', #57, 19.05000000000000426, 0.7853981633974552734 ) ;
#289 = ADVANCED_FACE ( 'NONE', ( #35, #71 ), #335, .F. ) ;
#290 = CARTESIAN_POINT ( 'NONE',  ( 0.000000000000000000, 0.000000000000000000, -3.050000000000000711 ) ) ;
#291 = AXIS2_PLACEMENT_3D ( 'NONE', #228, #127, #230 ) ;
#292 = EDGE_LOOP ( 'NONE', ( #151 ) ) ;
#293 = SURFACE_STYLE_USAGE ( .BOTH. , #67 ) ;
#294 = CARTESIAN_POINT ( 'NONE',  ( 0.000000000000000000, 25.50159999999999982, -4.569999999999999396 ) ) ;
#295 = EDGE_LOOP ( 'NONE', ( #136 ) ) ;
#296 = CARTESIAN_POINT ( 'NONE',  ( -27.94000000000000128, 0.000000000000000000, -3.299999999999990496 ) ) ;
#297 = EDGE_LOOP ( 'NONE', ( #233 ) ) ;
#298 = CYLINDRICAL_SURFACE ( 'NONE', #267, 25.50159999999999982 ) ;
#299 = ORIENTED_EDGE ( 'NONE', *, *, #258, .T. ) ;
#300 = PLANE ( 'NONE',  #279 ) ;
#301 = EDGE_LOOP ( 'NONE', ( #369 ) ) ;
#302 = VERTEX_POINT ( 'NONE', #12 ) ;
#303 = PLANE ( 'NONE',  #377 ) ;
#304 = STYLED_ITEM ( 'NONE', ( #414 ), #168 ) ;
#305 = EDGE_LOOP ( 'NONE', ( #364 ) ) ;
#306 = CARTESIAN_POINT ( 'NONE',  ( 25.75563411844343520, 0.000000000000000000, -7.370000000000000995 ) ) ;
#307 = CARTESIAN_POINT ( 'NONE',  ( 0.000000000000000000, 0.000000000000000000, -2.290000000000000480 ) ) ;
#308 = MECHANICAL_DESIGN_GEOMETRIC_PRESENTATION_REPRESENTATION (  '', ( #38 ), #129 ) ;
#309 = DIRECTION ( 'NONE',  ( 1.000000000000000000, 0.000000000000000000, 0.000000000000000000 ) ) ;
#310 = CARTESIAN_POINT ( 'NONE',  ( -27.69000000000000483, 0.000000000000000000, -3.050000000000000711 ) ) ;
#311 = FACE_OUTER_BOUND ( 'NONE', #402, .T. ) ;
#312 = MECHANICAL_DESIGN_GEOMETRIC_PRESENTATION_REPRESENTATION (  '', ( #304 ), #59 ) ;
#313 = CLOSED_SHELL ( 'NONE', ( #214, #23, #3, #110, #329, #317, #68, #54, #337, #196, #64, #403, #137, #250, #130, #409, #55, #289 ) ) ;
#314 = PLANE ( 'NONE',  #190 ) ;
#315 = PRODUCT_CONTEXT ( 'NONE', #115, 'mechanical' ) ;
#316 = DIRECTION ( 'NONE',  ( 0.000000000000000000, -0.000000000000000000, 1.000000000000000000 ) ) ;
#317 = ADVANCED_FACE ( 'NONE', ( #4, #104 ), #298, .F. ) ;
#318 = DIRECTION ( 'NONE',  ( 1.000000000000000000, 0.000000000000000000, 0.000000000000000000 ) ) ;
#319 = AXIS2_PLACEMENT_3D ( 'NONE', #227, #356, #97 ) ;
#320 = AXIS2_PLACEMENT_3D ( 'NONE', #124, #121, #221 ) ;
#321 = FACE_OUTER_BOUND ( 'NONE', #9, .T. ) ;
#322 = EDGE_CURVE ( 'NONE', #118, #118, #41, .T. ) ;
#323 =( LENGTH_UNIT ( ) NAMED_UNIT ( * ) SI_UNIT ( .MILLI., .METRE. ) );
#324 = DIRECTION ( 'NONE',  ( -1.000000000000000000, 0.000000000000000000, -0.000000000000000000 ) ) ;
#325 = CIRCLE ( 'NONE', #147, 25.75563411844343520 ) ;
#326 = CIRCLE ( 'NONE', #320, 26.34999999999999787 ) ;
#327 = EDGE_LOOP ( 'NONE', ( #107 ) ) ;
#328 = ORIENTED_EDGE ( 'NONE', *, *, #22, .T. ) ;
#329 = ADVANCED_FACE ( 'NONE', ( #116, #86 ), #106, .F. ) ;
#330 = VERTEX_POINT ( 'NONE', #296 ) ;
#331 = COLOUR_RGB ( '',0.7921568627450980005, 0.8196078431372548767, 0.9333333333333333481 ) ;
#332 = EDGE_LOOP ( 'NONE', ( #299 ) ) ;
#333 = DIRECTION ( 'NONE',  ( 0.000000000000000000, 0.000000000000000000, -1.000000000000000000 ) ) ;
#334 = EDGE_LOOP ( 'NONE', ( #277 ) ) ;
#335 = CONICAL_SURFACE ( 'NONE', #370, 19.30000000000000426, 0.7853981633974482790 ) ;
#336 = FACE_OUTER_BOUND ( 'NONE', #332, .T. ) ;
#337 = ADVANCED_FACE ( 'NONE', ( #336, #39 ), #300, .F. ) ;
#338 = EDGE_CURVE ( 'NONE', #61, #61, #111, .T. ) ;
#339 = EDGE_LOOP ( 'NONE', ( #45 ) ) ;
#340 = CARTESIAN_POINT ( 'NONE',  ( 0.000000000000000000, 0.000000000000000000, -0.4330127018922214077 ) ) ;
#341 = ORIENTED_EDGE ( 'NONE', *, *, #367, .F. ) ;
#342 = DIRECTION ( 'NONE',  ( -0.000000000000000000, -0.000000000000000000, -1.000000000000000000 ) ) ;
#343 = ORIENTED_EDGE ( 'NONE', *, *, #17, .T. ) ;
#344 = CONICAL_SURFACE ( 'NONE', #160, 27.69000000000000838, 0.7853981633974552734 ) ;
#345 = CARTESIAN_POINT ( 'NONE',  ( 0.000000000000000000, 0.000000000000000000, -3.299999999999990496 ) ) ;
#346 = SURFACE_SIDE_STYLE ('',( #240 ) ) ;
#347 = FACE_OUTER_BOUND ( 'NONE', #373, .T. ) ;
#348 = AXIS2_PLACEMENT_3D ( 'NONE', #281, #88, #309 ) ;
#349 = DIRECTION ( 'NONE',  ( -0.000000000000000000, -0.000000000000000000, 1.000000000000000000 ) ) ;
#350 = AXIS2_PLACEMENT_3D ( 'NONE', #263, #231, #259 ) ;
#351 = AXIS2_PLACEMENT_3D ( 'NONE', #307, #376, #223 ) ;
#352 = DIRECTION ( 'NONE',  ( 1.000000000000000000, 0.000000000000000000, 0.000000000000000000 ) ) ;
#353 = DIRECTION ( 'NONE',  ( -1.000000000000000000, 0.000000000000000000, 0.000000000000000000 ) ) ;
#354 = SURFACE_STYLE_FILL_AREA ( #162 ) ;
#355 = CONICAL_SURFACE ( 'NONE', #95, 27.94000000000000128, 0.7853981633974482790 ) ;
#356 = DIRECTION ( 'NONE',  ( -0.000000000000000000, -0.000000000000000000, 1.000000000000000000 ) ) ;
#357 = FACE_BOUND ( 'NONE', #87, .T. ) ;
#358 = CARTESIAN_POINT ( 'NONE',  ( 0.000000000000000000, 0.000000000000000000, -7.120000000000008100 ) ) ;
#359 = DIRECTION ( 'NONE',  ( 0.000000000000000000, 0.000000000000000000, -1.000000000000000000 ) ) ;
#360 = AXIS2_PLACEMENT_3D ( 'NONE', #249, #253, #52 ) ;
#361 = EDGE_LOOP ( 'NONE', ( #200 ) ) ;
#362 = EDGE_CURVE ( 'NONE', #384, #384, #388, .T. ) ;
#363 = DIRECTION ( 'NONE',  ( 0.000000000000000000, 0.000000000000000000, -1.000000000000000000 ) ) ;
#364 = ORIENTED_EDGE ( 'NONE', *, *, #391, .T. ) ;
#365 = FACE_BOUND ( 'NONE', #301, .T. ) ;
#366 = ORIENTED_EDGE ( 'NONE', *, *, #128, .T. ) ;
#367 = EDGE_CURVE ( 'NONE', #245, #245, #24, .T. ) ;
#368 = CYLINDRICAL_SURFACE ( 'NONE', #400, 21.00000000000000000 ) ;
#369 = ORIENTED_EDGE ( 'NONE', *, *, #204, .F. ) ;
#370 = AXIS2_PLACEMENT_3D ( 'NONE', #166, #135, #264 ) ;
#371 = AXIS2_PLACEMENT_3D ( 'NONE', #406, #63, #218 ) ;
#372 = CARTESIAN_POINT ( 'NONE',  ( 19.30000000000000426, 0.000000000000000000, -3.809999999999999609 ) ) ;
#373 = EDGE_LOOP ( 'NONE', ( #146 ) ) ;
#374 = DIRECTION ( 'NONE',  ( -0.000000000000000000, -0.000000000000000000, 1.000000000000000000 ) ) ;
#375 = EDGE_LOOP ( 'NONE', ( #328 ) ) ;
#376 = DIRECTION ( 'NONE',  ( -0.000000000000000000, -0.000000000000000000, 1.000000000000000000 ) ) ;
#377 = AXIS2_PLACEMENT_3D ( 'NONE', #410, #316, #278 ) ;
#378 = DIRECTION ( 'NONE',  ( -0.000000000000000000, -0.000000000000000000, 1.000000000000000000 ) ) ;
#379 = VERTEX_POINT ( 'NONE', #310 ) ;
#380 = DIRECTION ( 'NONE',  ( 1.000000000000000000, 0.000000000000000000, 0.000000000000000000 ) ) ;
#381 = APPLICATION_PROTOCOL_DEFINITION ( 'draft international standard', 'automotive_design', 1998, #115 ) ;
#382 = DIRECTION ( 'NONE',  ( -1.000000000000000000, 0.000000000000000000, 0.000000000000000000 ) ) ;
#383 = AXIS2_PLACEMENT_3D ( 'NONE', #158, #28, #385 ) ;
#384 = VERTEX_POINT ( 'NONE', #224 ) ;
#385 = DIRECTION ( 'NONE',  ( 1.000000000000000000, 0.000000000000000000, 0.000000000000000000 ) ) ;
#386 = FACE_OUTER_BOUND ( 'NONE', #173, .T. ) ;
#387 = DIRECTION ( 'NONE',  ( -1.000000000000000000, 0.000000000000000000, 0.000000000000000000 ) ) ;
#388 = CIRCLE ( 'NONE', #207, 20.19000000000000128 ) ;
#389 = AXIS2_PLACEMENT_3D ( 'NONE', #29, #216, #380 ) ;
#390 =( NAMED_UNIT ( * ) PLANE_ANGLE_UNIT ( ) SI_UNIT ( $, .RADIAN. ) );
#391 = EDGE_CURVE ( 'NONE', #154, #154, #325, .T. ) ;
#392 = DIRECTION ( 'NONE',  ( 0.000000000000000000, 0.000000000000000000, -1.000000000000000000 ) ) ;
#393 = DIRECTION ( 'NONE',  ( -1.000000000000000000, 0.000000000000000000, -0.000000000000000000 ) ) ;
#394 = DIRECTION ( 'NONE',  ( 1.000000000000000000, 0.000000000000000000, 0.000000000000000000 ) ) ;
#395 = ORIENTED_EDGE ( 'NONE', *, *, #48, .T. ) ;
#396 = CARTESIAN_POINT ( 'NONE',  ( 0.000000000000000000, 0.000000000000000000, -3.050000000000004263 ) ) ;
#397 = ORIENTED_EDGE ( 'NONE', *, *, #258, .F. ) ;
#398 = FACE_OUTER_BOUND ( 'NONE', #75, .T. ) ;
#399 = EDGE_LOOP ( 'NONE', ( #117 ) ) ;
#400 = AXIS2_PLACEMENT_3D ( 'NONE', #169, #374, #394 ) ;
#401 = VERTEX_POINT ( 'NONE', #248 ) ;
#402 = EDGE_LOOP ( 'NONE', ( #343 ) ) ;
#403 = ADVANCED_FACE ( 'NONE', ( #398, #74 ), #368, .T. ) ;
#404 = CARTESIAN_POINT ( 'NONE',  ( 0.000000000000000000, 0.000000000000000000, 30.78524545694153502 ) ) ;
#405 = APPLICATION_PROTOCOL_DEFINITION ( 'draft international standard', 'automotive_design', 1998, #77 ) ;
#406 = CARTESIAN_POINT ( 'NONE',  ( 0.000000000000000000, 0.000000000000000000, -6.929999999999998828 ) ) ;
#407 = CIRCLE ( 'NONE', #139, 27.69000000000000483 ) ;
#408 = DIRECTION ( 'NONE',  ( -0.000000000000000000, -0.000000000000000000, 1.000000000000000000 ) ) ;
#409 = ADVANCED_FACE ( 'NONE', ( #171, #365 ), #288, .F. ) ;
#410 = CARTESIAN_POINT ( 'NONE',  ( 0.000000000000000000, 26.34999999999999787, -3.809999999999999609 ) ) ;
#411 = DIRECTION ( 'NONE',  ( 1.000000000000000000, 0.000000000000000000, 0.000000000000000000 ) ) ;
#412 = AXIS2_PLACEMENT_3D ( 'NONE', #89, #21, #353 ) ;
#413 = FACE_BOUND ( 'NONE', #243, .T. ) ;
#414 = PRESENTATION_STYLE_ASSIGNMENT (( #293 ) ) ;
ENDSEC;
END-ISO-10303-21;
