ISO-10303-21;
HEADER;
FILE_DESCRIPTION (( 'STEP AP214' ),
    '1' );
FILE_NAME ('SK-10483- B3-SM1.STEP',
    '2024-06-10T14:45:46',
    ( '' ),
    ( '' ),
    'SwSTEP 2.0',
    'SolidWorks 2020',
    '' );
FILE_SCHEMA (( 'AUTOMOTIVE_DESIGN' ));
ENDSEC;

DATA;
#1 = CARTESIAN_POINT ( 'NONE',  ( 1.068124999999987557, 0.000000000000000000, 0.000000000000000000 ) ) ;
#2 = DIRECTION ( 'NONE',  ( 0.000000000000000000, 0.000000000000000000, 1.000000000000000000 ) ) ;
#3 = ADVANCED_FACE ( 'NONE', ( #9, #204 ), #51, .F. ) ;
#4 = CARTESIAN_POINT ( 'NONE',  ( 1.318124999999997549, 0.000000000000000000, 12.94433756729740814 ) ) ;
#5 = PLANE ( 'NONE',  #302 ) ;
#6 = PRESENTATION_LAYER_ASSIGNMENT (  '', '', ( #91 ) ) ;
#7 =( LENGTH_UNIT ( ) NAMED_UNIT ( * ) SI_UNIT ( .MILLI., .METRE. ) );
#8 = STYLED_ITEM ( 'NONE', ( #234 ), #105 ) ;
#9 = FACE_BOUND ( 'NONE', #50, .T. ) ;
#10 = DIRECTION ( 'NONE',  ( 1.000000000000000000, 0.000000000000000000, 0.000000000000000000 ) ) ;
#11 = CYLINDRICAL_SURFACE ( 'NONE', #185, 12.19999999999999929 ) ;
#12 = APPLICATION_PROTOCOL_DEFINITION ( 'draft international standard', 'automotive_design', 1998, #95 ) ;
#13 = ORIENTED_EDGE ( 'NONE', *, *, #63, .T. ) ;
#14 = ORIENTED_EDGE ( 'NONE', *, *, #242, .T. ) ;
#15 = AXIS2_PLACEMENT_3D ( 'NONE', #274, #190, #67 ) ;
#16 = DIRECTION ( 'NONE',  ( 1.000000000000000000, 0.000000000000000000, 0.000000000000000000 ) ) ;
#17 = SURFACE_SIDE_STYLE ('',( #247 ) ) ;
#18 = DIRECTION ( 'NONE',  ( 0.000000000000000000, 0.000000000000000000, 1.000000000000000000 ) ) ;
#19 = AXIS2_PLACEMENT_3D ( 'NONE', #37, #16, #325 ) ;
#20 = ADVANCED_FACE ( 'NONE', ( #107, #34 ), #5, .F. ) ;
#21 = DIRECTION ( 'NONE',  ( -1.000000000000000000, 0.000000000000000000, -0.000000000000000000 ) ) ;
#22 = DIRECTION ( 'NONE',  ( -1.000000000000000000, -0.000000000000000000, -0.000000000000000000 ) ) ;
#23 = DIRECTION ( 'NONE',  ( -1.000000000000000000, -0.000000000000000000, -0.000000000000000000 ) ) ;
#24 = DIRECTION ( 'NONE',  ( -0.000000000000000000, 0.000000000000000000, 1.000000000000000000 ) ) ;
#25 = EDGE_LOOP ( 'NONE', ( #233 ) ) ;
#26 = VERTEX_POINT ( 'NONE', #121 ) ;
#27 = ORIENTED_EDGE ( 'NONE', *, *, #326, .T. ) ;
#28 = CYLINDRICAL_SURFACE ( 'NONE', #44, 12.80000000000000071 ) ;
#29 = MECHANICAL_DESIGN_GEOMETRIC_PRESENTATION_REPRESENTATION (  '', ( #8 ), #74 ) ;
#30 = DIRECTION ( 'NONE',  ( -1.000000000000000000, -0.000000000000000000, -0.000000000000000000 ) ) ;
#31 =( NAMED_UNIT ( * ) SI_UNIT ( $, .STERADIAN. ) SOLID_ANGLE_UNIT ( ) );
#32 = ORIENTED_EDGE ( 'NONE', *, *, #326, .F. ) ;
#33 = CARTESIAN_POINT ( 'NONE',  ( -6.081875000000001030, 11.44999999999999929, 0.000000000000000000 ) ) ;
#34 = FACE_BOUND ( 'NONE', #85, .T. ) ;
#35 = ORIENTED_EDGE ( 'NONE', *, *, #307, .F. ) ;
#36 = ORIENTED_EDGE ( 'NONE', *, *, #246, .T. ) ;
#37 = CARTESIAN_POINT ( 'NONE',  ( -6.081875000000001030, 0.000000000000000000, 0.000000000000000000 ) ) ;
#38 = ADVANCED_FACE ( 'NONE', ( #156, #101 ), #11, .T. ) ;
#39 = CARTESIAN_POINT ( 'NONE',  ( -5.831874999999990372, 0.000000000000000000, 0.000000000000000000 ) ) ;
#40 = AXIS2_PLACEMENT_3D ( 'NONE', #286, #56, #10 ) ;
#41 = CARTESIAN_POINT ( 'NONE',  ( -3.081875000000001474, 12.19999999999999929, 0.000000000000000000 ) ) ;
#42 = DIRECTION ( 'NONE',  ( 0.000000000000000000, 0.000000000000000000, -1.000000000000000000 ) ) ;
#43 = CARTESIAN_POINT ( 'NONE',  ( -1.981875000000002718, 0.000000000000000000, 0.000000000000000000 ) ) ;
#44 = AXIS2_PLACEMENT_3D ( 'NONE', #257, #148, #194 ) ;
#45 = DIRECTION ( 'NONE',  ( -1.000000000000000000, 0.000000000000000000, -0.000000000000000000 ) ) ;
#46 = ORIENTED_EDGE ( 'NONE', *, *, #136, .T. ) ;
#47 = PRODUCT ( 'SK-10483- B3-SM1', 'SK-10483- B3-SM1', '', ( #205 ) ) ;
#48 = EDGE_CURVE ( 'NONE', #96, #96, #89, .T. ) ;
#49 = CARTESIAN_POINT ( 'NONE',  ( -6.081875000000001030, 0.000000000000000000, 0.000000000000000000 ) ) ;
#50 = EDGE_LOOP ( 'NONE', ( #269 ) ) ;
#51 = CONICAL_SURFACE ( 'NONE', #241, 12.94433756729740814, 0.5235987755982860481 ) ;
#52 = CONICAL_SURFACE ( 'NONE', #19, 12.54066243270258596, 0.5235987755983015912 ) ;
#53 = AXIS2_PLACEMENT_3D ( 'NONE', #1, #196, #75 ) ;
#54 = ORIENTED_EDGE ( 'NONE', *, *, #213, .F. ) ;
#55 = ADVANCED_FACE ( 'NONE', ( #134, #240 ), #249, .F. ) ;
#56 = DIRECTION ( 'NONE',  ( 0.000000000000000000, 0.000000000000000000, 1.000000000000000000 ) ) ;
#57 = EDGE_LOOP ( 'NONE', ( #200 ) ) ;
#58 = VERTEX_POINT ( 'NONE', #102 ) ;
#59 =( GEOMETRIC_REPRESENTATION_CONTEXT ( 3 ) GLOBAL_UNCERTAINTY_ASSIGNED_CONTEXT ( ( #231 ) ) GLOBAL_UNIT_ASSIGNED_CONTEXT ( ( #284, #154, #131 ) ) REPRESENTATION_CONTEXT ( 'NONE', 'WORKASPACE' ) );
#60 = EDGE_LOOP ( 'NONE', ( #182 ) ) ;
#61 = CARTESIAN_POINT ( 'NONE',  ( -1.481875000000002274, 0.000000000000000000, 0.000000000000000000 ) ) ;
#62 = ORIENTED_EDGE ( 'NONE', *, *, #48, .F. ) ;
#63 = EDGE_CURVE ( 'NONE', #70, #70, #221, .T. ) ;
#64 = CARTESIAN_POINT ( 'NONE',  ( -1.481875000000002274, 13.50000000000000000, 0.000000000000000000 ) ) ;
#65 = DIRECTION ( 'NONE',  ( -1.000000000000000000, -0.000000000000000000, -0.000000000000000000 ) ) ;
#66 = CARTESIAN_POINT ( 'NONE',  ( -3.581875000000001918, 0.000000000000000000, 0.000000000000000000 ) ) ;
#67 = DIRECTION ( 'NONE',  ( 0.000000000000000000, 0.000000000000000000, 1.000000000000000000 ) ) ;
#68 = ADVANCED_FACE ( 'NONE', ( #252, #111 ), #220, .F. ) ;
#69 = FACE_OUTER_BOUND ( 'NONE', #172, .T. ) ;
#70 = VERTEX_POINT ( 'NONE', #170 ) ;
#71 = EDGE_LOOP ( 'NONE', ( #236 ) ) ;
#72 = AXIS2_PLACEMENT_3D ( 'NONE', #116, #21, #166 ) ;
#73 = AXIS2_PLACEMENT_3D ( 'NONE', #279, #94, #258 ) ;
#74 =( GEOMETRIC_REPRESENTATION_CONTEXT ( 3 ) GLOBAL_UNCERTAINTY_ASSIGNED_CONTEXT ( ( #332 ) ) GLOBAL_UNIT_ASSIGNED_CONTEXT ( ( #7, #84, #31 ) ) REPRESENTATION_CONTEXT ( 'NONE', 'WORKASPACE' ) );
#75 = DIRECTION ( 'NONE',  ( 0.000000000000000000, 0.000000000000000000, 1.000000000000000000 ) ) ;
#76 = EDGE_LOOP ( 'NONE', ( #153 ) ) ;
#77 = FACE_BOUND ( 'NONE', #120, .T. ) ;
#78 = DIRECTION ( 'NONE',  ( -1.000000000000000000, -0.000000000000000000, -0.000000000000000000 ) ) ;
#79 = ORIENTED_EDGE ( 'NONE', *, *, #136, .F. ) ;
#80 = VERTEX_POINT ( 'NONE', #152 ) ;
#81 = EDGE_LOOP ( 'NONE', ( #162 ) ) ;
#82 = APPLICATION_PROTOCOL_DEFINITION ( 'draft international standard', 'automotive_design', 1998, #224 ) ;
#83 = DIRECTION ( 'NONE',  ( 0.000000000000000000, 0.000000000000000000, 1.000000000000000000 ) ) ;
#84 =( NAMED_UNIT ( * ) PLANE_ANGLE_UNIT ( ) SI_UNIT ( $, .RADIAN. ) );
#85 = EDGE_LOOP ( 'NONE', ( #35 ) ) ;
#86 = ORIENTED_EDGE ( 'NONE', *, *, #213, .T. ) ;
#87 = FACE_OUTER_BOUND ( 'NONE', #106, .T. ) ;
#88 = FACE_BOUND ( 'NONE', #76, .T. ) ;
#89 = CIRCLE ( 'NONE', #320, 13.50000000000000000 ) ;
#90 = CARTESIAN_POINT ( 'NONE',  ( -7.538750000000000284, 0.000000000000000000, 0.000000000000000000 ) ) ;
#91 = STYLED_ITEM ( 'NONE', ( #319 ), #206 ) ;
#92 = CIRCLE ( 'NONE', #298, 15.24000000000000021 ) ;
#93 = AXIS2_PLACEMENT_3D ( 'NONE', #43, #223, #99 ) ;
#94 = DIRECTION ( 'NONE',  ( -1.000000000000000000, -0.000000000000000000, -0.000000000000000000 ) ) ;
#95 = APPLICATION_CONTEXT ( 'automotive_design' ) ;
#96 = VERTEX_POINT ( 'NONE', #301 ) ;
#97 = PLANE ( 'NONE',  #315 ) ;
#98 = DIRECTION ( 'NONE',  ( 0.000000000000000000, 0.000000000000000000, 1.000000000000000000 ) ) ;
#99 = DIRECTION ( 'NONE',  ( 0.000000000000000000, 0.000000000000000000, 1.000000000000000000 ) ) ;
#100 = VERTEX_POINT ( 'NONE', #203 ) ;
#101 = FACE_OUTER_BOUND ( 'NONE', #71, .T. ) ;
#102 = CARTESIAN_POINT ( 'NONE',  ( 1.068124999999987557, 0.000000000000000000, 12.80000000000000071 ) ) ;
#103 = PRODUCT_DEFINITION_CONTEXT ( 'detailed design', #224, 'design' ) ;
#104 = ORIENTED_EDGE ( 'NONE', *, *, #318, .F. ) ;
#105 = ADVANCED_BREP_SHAPE_REPRESENTATION ( 'SK-10483- B3-SM1', ( #206, #40 ), #59 ) ;
#106 = EDGE_LOOP ( 'NONE', ( #127 ) ) ;
#107 = FACE_OUTER_BOUND ( 'NONE', #262, .T. ) ;
#108 = SURFACE_SIDE_STYLE ('',( #160 ) ) ;
#109 = CIRCLE ( 'NONE', #53, 12.80000000000000071 ) ;
#110 = EDGE_LOOP ( 'NONE', ( #32 ) ) ;
#111 = FACE_OUTER_BOUND ( 'NONE', #57, .T. ) ;
#112 = DIRECTION ( 'NONE',  ( 0.000000000000000000, 0.000000000000000000, -1.000000000000000000 ) ) ;
#113 = AXIS2_PLACEMENT_3D ( 'NONE', #66, #167, #276 ) ;
#114 = CYLINDRICAL_SURFACE ( 'NONE', #15, 11.44999999999999929 ) ;
#115 = CARTESIAN_POINT ( 'NONE',  ( -7.538750000000000284, 0.000000000000000000, 0.000000000000000000 ) ) ;
#116 = CARTESIAN_POINT ( 'NONE',  ( 1.318124999999997549, 15.24000000000000021, 0.000000000000000000 ) ) ;
#117 = DIRECTION ( 'NONE',  ( -1.000000000000000000, -0.000000000000000000, -0.000000000000000000 ) ) ;
#118 = AXIS2_PLACEMENT_3D ( 'NONE', #49, #230, #2 ) ;
#119 = DIRECTION ( 'NONE',  ( -1.000000000000000000, -0.000000000000000000, -0.000000000000000000 ) ) ;
#120 = EDGE_LOOP ( 'NONE', ( #46 ) ) ;
#121 = CARTESIAN_POINT ( 'NONE',  ( -3.581875000000001918, 0.000000000000000000, 12.68500000000000050 ) ) ;
#122 = EDGE_LOOP ( 'NONE', ( #54 ) ) ;
#123 = FACE_OUTER_BOUND ( 'NONE', #183, .T. ) ;
#124 = AXIS2_PLACEMENT_3D ( 'NONE', #259, #330, #174 ) ;
#125 = ORIENTED_EDGE ( 'NONE', *, *, #63, .F. ) ;
#126 = EDGE_CURVE ( 'NONE', #26, #26, #250, .T. ) ;
#127 = ORIENTED_EDGE ( 'NONE', *, *, #318, .T. ) ;
#128 = AXIS2_PLACEMENT_3D ( 'NONE', #90, #254, #142 ) ;
#129 = CARTESIAN_POINT ( 'NONE',  ( 1.318124999999996438, 0.000000000000000000, 15.24000000000000021 ) ) ;
#130 = CARTESIAN_POINT ( 'NONE',  ( 1.318124999999998215, 0.000000000000000000, 0.000000000000000000 ) ) ;
#131 =( NAMED_UNIT ( * ) SI_UNIT ( $, .STERADIAN. ) SOLID_ANGLE_UNIT ( ) );
#132 = DIRECTION ( 'NONE',  ( 0.000000000000000000, 0.000000000000000000, -1.000000000000000000 ) ) ;
#133 = CARTESIAN_POINT ( 'NONE',  ( -6.081875000000001030, 0.000000000000000000, 11.44999999999999929 ) ) ;
#134 = FACE_BOUND ( 'NONE', #25, .T. ) ;
#135 = MECHANICAL_DESIGN_GEOMETRIC_PRESENTATION_REPRESENTATION (  '', ( #91 ), #328 ) ;
#136 = EDGE_CURVE ( 'NONE', #227, #227, #263, .T. ) ;
#137 = DIRECTION ( 'NONE',  ( 0.000000000000000000, 0.000000000000000000, -1.000000000000000000 ) ) ;
#138 = DIRECTION ( 'NONE',  ( 0.000000000000000000, 0.000000000000000000, 1.000000000000000000 ) ) ;
#139 = FACE_OUTER_BOUND ( 'NONE', #264, .T. ) ;
#140 = FILL_AREA_STYLE_COLOUR ( '', #243 ) ;
#141 = ADVANCED_FACE ( 'NONE', ( #317, #87 ), #299, .T. ) ;
#142 = DIRECTION ( 'NONE',  ( 0.000000000000000000, 0.000000000000000000, 1.000000000000000000 ) ) ;
#143 = CARTESIAN_POINT ( 'NONE',  ( 1.318124999999996438, 0.000000000000000000, 0.000000000000000000 ) ) ;
#144 = DIRECTION ( 'NONE',  ( -0.000000000000000000, 0.000000000000000000, 1.000000000000000000 ) ) ;
#145 = AXIS2_PLACEMENT_3D ( 'NONE', #282, #30, #278 ) ;
#146 = FACE_OUTER_BOUND ( 'NONE', #60, .T. ) ;
#147 = FACE_OUTER_BOUND ( 'NONE', #280, .T. ) ;
#148 = DIRECTION ( 'NONE',  ( -1.000000000000000000, -0.000000000000000000, -0.000000000000000000 ) ) ;
#149 = ORIENTED_EDGE ( 'NONE', *, *, #126, .T. ) ;
#150 = AXIS2_PLACEMENT_3D ( 'NONE', #64, #163, #137 ) ;
#151 = CIRCLE ( 'NONE', #244, 12.94433756729740814 ) ;
#152 = CARTESIAN_POINT ( 'NONE',  ( -1.481875000000002274, 0.000000000000000000, 12.80000000000000071 ) ) ;
#153 = ORIENTED_EDGE ( 'NONE', *, *, #242, .F. ) ;
#154 =( NAMED_UNIT ( * ) PLANE_ANGLE_UNIT ( ) SI_UNIT ( $, .RADIAN. ) );
#155 = ADVANCED_FACE ( 'NONE', ( #273, #139 ), #165, .F. ) ;
#156 = FACE_OUTER_BOUND ( 'NONE', #181, .T. ) ;
#157 = AXIS2_PLACEMENT_3D ( 'NONE', #115, #22, #18 ) ;
#158 = CARTESIAN_POINT ( 'NONE',  ( -3.081875000000001474, 0.000000000000000000, 15.24000000000000021 ) ) ;
#159 = EDGE_LOOP ( 'NONE', ( #13 ) ) ;
#160 = SURFACE_STYLE_FILL_AREA ( #261 ) ;
#161 = EDGE_LOOP ( 'NONE', ( #333 ) ) ;
#162 = ORIENTED_EDGE ( 'NONE', *, *, #267, .F. ) ;
#163 = DIRECTION ( 'NONE',  ( 1.000000000000000000, 0.000000000000000000, 0.000000000000000000 ) ) ;
#164 =( LENGTH_UNIT ( ) NAMED_UNIT ( * ) SI_UNIT ( .MILLI., .METRE. ) );
#165 = PLANE ( 'NONE',  #297 ) ;
#166 = DIRECTION ( 'NONE',  ( -0.000000000000000000, 0.000000000000000000, 1.000000000000000000 ) ) ;
#167 = DIRECTION ( 'NONE',  ( -1.000000000000000000, -0.000000000000000000, -0.000000000000000000 ) ) ;
#168 = CARTESIAN_POINT ( 'NONE',  ( -1.981875000000002274, 11.44999999999999929, 0.000000000000000000 ) ) ;
#169 = UNCERTAINTY_MEASURE_WITH_UNIT (LENGTH_MEASURE( 1.000000000000000082E-05 ), #164, 'distance_accuracy_value', 'NONE');
#170 = CARTESIAN_POINT ( 'NONE',  ( -5.831874999999990372, 0.000000000000000000, -12.68500000000000050 ) ) ;
#171 = CARTESIAN_POINT ( 'NONE',  ( -1.481875000000002274, 0.000000000000000000, 0.000000000000000000 ) ) ;
#172 = EDGE_LOOP ( 'NONE', ( #214 ) ) ;
#173 = CARTESIAN_POINT ( 'NONE',  ( -3.581875000000001474, 12.68500000000000050, 0.000000000000000000 ) ) ;
#174 = DIRECTION ( 'NONE',  ( 0.000000000000000000, 0.000000000000000000, 1.000000000000000000 ) ) ;
#175 = CLOSED_SHELL ( 'NONE', ( #323, #176, #20, #229, #272, #38, #155, #141, #55, #248, #178, #68, #3, #188 ) ) ;
#176 = ADVANCED_FACE ( 'NONE', ( #219, #327 ), #114, .F. ) ;
#177 = EDGE_LOOP ( 'NONE', ( #285 ) ) ;
#178 = ADVANCED_FACE ( 'NONE', ( #88, #277 ), #187, .F. ) ;
#179 = DIRECTION ( 'NONE',  ( 0.000000000000000000, 0.000000000000000000, -1.000000000000000000 ) ) ;
#180 = SHAPE_DEFINITION_REPRESENTATION ( #202, #105 ) ;
#181 = EDGE_LOOP ( 'NONE', ( #79 ) ) ;
#182 = ORIENTED_EDGE ( 'NONE', *, *, #126, .F. ) ;
#183 = EDGE_LOOP ( 'NONE', ( #149 ) ) ;
#184 = DIRECTION ( 'NONE',  ( 1.000000000000000000, 0.000000000000000000, 0.000000000000000000 ) ) ;
#185 = AXIS2_PLACEMENT_3D ( 'NONE', #209, #291, #83 ) ;
#186 = PRESENTATION_LAYER_ASSIGNMENT (  '', '', ( #8 ) ) ;
#187 = PLANE ( 'NONE',  #150 ) ;
#188 = ADVANCED_FACE ( 'NONE', ( #271, #245 ), #52, .T. ) ;
#189 = CARTESIAN_POINT ( 'NONE',  ( -6.081875000000001030, 0.000000000000000000, 0.000000000000000000 ) ) ;
#190 = DIRECTION ( 'NONE',  ( -1.000000000000000000, -0.000000000000000000, -0.000000000000000000 ) ) ;
#191 = AXIS2_PLACEMENT_3D ( 'NONE', #171, #117, #281 ) ;
#192 = DIRECTION ( 'NONE',  ( -1.000000000000000000, 0.000000000000000000, -0.000000000000000000 ) ) ;
#193 = FACE_OUTER_BOUND ( 'NONE', #159, .T. ) ;
#194 = DIRECTION ( 'NONE',  ( 0.000000000000000000, 0.000000000000000000, 1.000000000000000000 ) ) ;
#195 = CIRCLE ( 'NONE', #93, 13.50000000000000000 ) ;
#196 = DIRECTION ( 'NONE',  ( 1.000000000000000000, -0.000000000000000000, -0.000000000000000000 ) ) ;
#197 = FACE_OUTER_BOUND ( 'NONE', #268, .T. ) ;
#198 = SURFACE_STYLE_USAGE ( .BOTH. , #108 ) ;
#199 = AXIS2_PLACEMENT_3D ( 'NONE', #39, #184, #112 ) ;
#200 = ORIENTED_EDGE ( 'NONE', *, *, #312, .T. ) ;
#201 = AXIS2_PLACEMENT_3D ( 'NONE', #173, #192, #24 ) ;
#202 = PRODUCT_DEFINITION_SHAPE ( 'NONE', 'NONE',  #309 ) ;
#203 = CARTESIAN_POINT ( 'NONE',  ( -3.081875000000001474, 0.000000000000000000, 12.19999999999999929 ) ) ;
#204 = FACE_OUTER_BOUND ( 'NONE', #235, .T. ) ;
#205 = PRODUCT_CONTEXT ( 'NONE', #95, 'mechanical' ) ;
#206 = MANIFOLD_SOLID_BREP ( 'Chanfrein2', #175 ) ;
#207 = DIRECTION ( 'NONE',  ( -1.000000000000000000, -0.000000000000000000, -0.000000000000000000 ) ) ;
#208 = CARTESIAN_POINT ( 'NONE',  ( -6.081875000000001030, 0.000000000000000000, -12.54066243270258596 ) ) ;
#209 = CARTESIAN_POINT ( 'NONE',  ( -7.538750000000000284, 0.000000000000000000, 0.000000000000000000 ) ) ;
#210 = PRODUCT_RELATED_PRODUCT_CATEGORY ( 'part', '', ( #47 ) ) ;
#211 = CIRCLE ( 'NONE', #303, 11.44999999999999929 ) ;
#212 = VERTEX_POINT ( 'NONE', #288 ) ;
#213 = EDGE_CURVE ( 'NONE', #313, #313, #222, .T. ) ;
#214 = ORIENTED_EDGE ( 'NONE', *, *, #312, .F. ) ;
#215 = CARTESIAN_POINT ( 'NONE',  ( -3.581875000000001918, 0.000000000000000000, 0.000000000000000000 ) ) ;
#216 = SURFACE_STYLE_USAGE ( .BOTH. , #17 ) ;
#217 = AXIS2_PLACEMENT_3D ( 'NONE', #215, #65, #138 ) ;
#218 = CIRCLE ( 'NONE', #191, 12.80000000000000071 ) ;
#219 = FACE_OUTER_BOUND ( 'NONE', #110, .T. ) ;
#220 = CYLINDRICAL_SURFACE ( 'NONE', #128, 13.50000000000000000 ) ;
#221 = CIRCLE ( 'NONE', #199, 12.68500000000000050 ) ;
#222 = CIRCLE ( 'NONE', #321, 12.54066243270258596 ) ;
#223 = DIRECTION ( 'NONE',  ( -1.000000000000000000, -0.000000000000000000, -0.000000000000000000 ) ) ;
#224 = APPLICATION_CONTEXT ( 'automotive_design' ) ;
#225 = CARTESIAN_POINT ( 'NONE',  ( 1.318124999999997549, 0.000000000000000000, 0.000000000000000000 ) ) ;
#226 = ORIENTED_EDGE ( 'NONE', *, *, #253, .F. ) ;
#227 = VERTEX_POINT ( 'NONE', #304 ) ;
#228 = CYLINDRICAL_SURFACE ( 'NONE', #73, 12.68500000000000050 ) ;
#229 = ADVANCED_FACE ( 'NONE', ( #193, #123 ), #228, .T. ) ;
#230 = DIRECTION ( 'NONE',  ( -1.000000000000000000, -0.000000000000000000, -0.000000000000000000 ) ) ;
#231 = UNCERTAINTY_MEASURE_WITH_UNIT (LENGTH_MEASURE( 1.000000000000000082E-05 ), #284, 'distance_accuracy_value', 'NONE');
#232 = CARTESIAN_POINT ( 'NONE',  ( -1.981875000000002718, 0.000000000000000000, 11.44999999999999929 ) ) ;
#233 = ORIENTED_EDGE ( 'NONE', *, *, #253, .T. ) ;
#234 = PRESENTATION_STYLE_ASSIGNMENT (( #198 ) ) ;
#235 = EDGE_LOOP ( 'NONE', ( #226 ) ) ;
#236 = ORIENTED_EDGE ( 'NONE', *, *, #283, .T. ) ;
#237 = VERTEX_POINT ( 'NONE', #4 ) ;
#238 = EDGE_LOOP ( 'NONE', ( #306 ) ) ;
#239 = FILL_AREA_STYLE_COLOUR ( '', #251 ) ;
#240 = FACE_OUTER_BOUND ( 'NONE', #287, .T. ) ;
#241 = AXIS2_PLACEMENT_3D ( 'NONE', #130, #308, #179 ) ;
#242 = EDGE_CURVE ( 'NONE', #80, #80, #218, .T. ) ;
#243 = COLOUR_RGB ( '',0.5019607843137254832, 0.5019607843137254832, 0.5019607843137254832 ) ;
#244 = AXIS2_PLACEMENT_3D ( 'NONE', #225, #23, #98 ) ;
#245 = FACE_BOUND ( 'NONE', #122, .T. ) ;
#246 = EDGE_CURVE ( 'NONE', #58, #58, #109, .T. ) ;
#247 = SURFACE_STYLE_FILL_AREA ( #296 ) ;
#248 = ADVANCED_FACE ( 'NONE', ( #197, #147 ), #28, .F. ) ;
#249 = PLANE ( 'NONE',  #72 ) ;
#250 = CIRCLE ( 'NONE', #217, 12.68500000000000050 ) ;
#251 = COLOUR_RGB ( '',0.5019607843137254832, 0.5019607843137254832, 0.5019607843137254832 ) ;
#252 = FACE_OUTER_BOUND ( 'NONE', #266, .T. ) ;
#253 = EDGE_CURVE ( 'NONE', #237, #237, #151, .T. ) ;
#254 = DIRECTION ( 'NONE',  ( -1.000000000000000000, -0.000000000000000000, -0.000000000000000000 ) ) ;
#255 = DIRECTION ( 'NONE',  ( -1.000000000000000000, -0.000000000000000000, -0.000000000000000000 ) ) ;
#256 = CARTESIAN_POINT ( 'NONE',  ( -1.981875000000002718, 0.000000000000000000, 0.000000000000000000 ) ) ;
#257 = CARTESIAN_POINT ( 'NONE',  ( -7.538750000000000284, 0.000000000000000000, 0.000000000000000000 ) ) ;
#258 = DIRECTION ( 'NONE',  ( 0.000000000000000000, 0.000000000000000000, 1.000000000000000000 ) ) ;
#259 = CARTESIAN_POINT ( 'NONE',  ( -3.081875000000001474, 0.000000000000000000, 0.000000000000000000 ) ) ;
#260 = VERTEX_POINT ( 'NONE', #232 ) ;
#261 = FILL_AREA_STYLE ('',( #239 ) ) ;
#262 = EDGE_LOOP ( 'NONE', ( #86 ) ) ;
#263 = CIRCLE ( 'NONE', #113, 12.19999999999999929 ) ;
#264 = EDGE_LOOP ( 'NONE', ( #316 ) ) ;
#265 = VERTEX_POINT ( 'NONE', #133 ) ;
#266 = EDGE_LOOP ( 'NONE', ( #62 ) ) ;
#267 = EDGE_CURVE ( 'NONE', #310, #310, #275, .T. ) ;
#268 = EDGE_LOOP ( 'NONE', ( #36 ) ) ;
#269 = ORIENTED_EDGE ( 'NONE', *, *, #246, .F. ) ;
#270 = CIRCLE ( 'NONE', #145, 12.19999999999999929 ) ;
#271 = FACE_OUTER_BOUND ( 'NONE', #314, .T. ) ;
#272 = ADVANCED_FACE ( 'NONE', ( #146, #77 ), #305, .F. ) ;
#273 = FACE_BOUND ( 'NONE', #238, .T. ) ;
#274 = CARTESIAN_POINT ( 'NONE',  ( -7.538750000000000284, 0.000000000000000000, 0.000000000000000000 ) ) ;
#275 = CIRCLE ( 'NONE', #124, 15.24000000000000021 ) ;
#276 = DIRECTION ( 'NONE',  ( 0.000000000000000000, 0.000000000000000000, 1.000000000000000000 ) ) ;
#277 = FACE_OUTER_BOUND ( 'NONE', #161, .T. ) ;
#278 = DIRECTION ( 'NONE',  ( 0.000000000000000000, 0.000000000000000000, 1.000000000000000000 ) ) ;
#279 = CARTESIAN_POINT ( 'NONE',  ( -7.538750000000000284, 0.000000000000000000, 0.000000000000000000 ) ) ;
#280 = EDGE_LOOP ( 'NONE', ( #14 ) ) ;
#281 = DIRECTION ( 'NONE',  ( 0.000000000000000000, 0.000000000000000000, 1.000000000000000000 ) ) ;
#282 = CARTESIAN_POINT ( 'NONE',  ( -3.081875000000001474, 0.000000000000000000, 0.000000000000000000 ) ) ;
#283 = EDGE_CURVE ( 'NONE', #100, #100, #270, .T. ) ;
#284 =( LENGTH_UNIT ( ) NAMED_UNIT ( * ) SI_UNIT ( .MILLI., .METRE. ) );
#285 = ORIENTED_EDGE ( 'NONE', *, *, #307, .T. ) ;
#286 = CARTESIAN_POINT ( 'NONE',  ( 0.000000000000000000, 0.000000000000000000, 0.000000000000000000 ) ) ;
#287 = EDGE_LOOP ( 'NONE', ( #104 ) ) ;
#288 = CARTESIAN_POINT ( 'NONE',  ( -1.981875000000002718, 0.000000000000000000, 13.50000000000000000 ) ) ;
#289 = DIRECTION ( 'NONE',  ( 0.000000000000000000, 0.000000000000000000, 1.000000000000000000 ) ) ;
#290 = VERTEX_POINT ( 'NONE', #129 ) ;
#291 = DIRECTION ( 'NONE',  ( -1.000000000000000000, -0.000000000000000000, -0.000000000000000000 ) ) ;
#292 = EDGE_LOOP ( 'NONE', ( #27 ) ) ;
#293 = DIRECTION ( 'NONE',  ( 1.000000000000000000, 0.000000000000000000, 0.000000000000000000 ) ) ;
#294 = DIRECTION ( 'NONE',  ( 0.000000000000000000, 0.000000000000000000, -1.000000000000000000 ) ) ;
#295 =( NAMED_UNIT ( * ) SI_UNIT ( $, .STERADIAN. ) SOLID_ANGLE_UNIT ( ) );
#296 = FILL_AREA_STYLE ('',( #140 ) ) ;
#297 = AXIS2_PLACEMENT_3D ( 'NONE', #41, #293, #294 ) ;
#298 = AXIS2_PLACEMENT_3D ( 'NONE', #143, #255, #300 ) ;
#299 = CYLINDRICAL_SURFACE ( 'NONE', #157, 15.24000000000000021 ) ;
#300 = DIRECTION ( 'NONE',  ( 0.000000000000000000, 0.000000000000000000, 1.000000000000000000 ) ) ;
#301 = CARTESIAN_POINT ( 'NONE',  ( -1.481875000000002274, 0.000000000000000000, 13.50000000000000000 ) ) ;
#302 = AXIS2_PLACEMENT_3D ( 'NONE', #33, #311, #132 ) ;
#303 = AXIS2_PLACEMENT_3D ( 'NONE', #256, #119, #331 ) ;
#304 = CARTESIAN_POINT ( 'NONE',  ( -3.581875000000001918, 0.000000000000000000, 12.19999999999999929 ) ) ;
#305 = PLANE ( 'NONE',  #201 ) ;
#306 = ORIENTED_EDGE ( 'NONE', *, *, #283, .F. ) ;
#307 = EDGE_CURVE ( 'NONE', #265, #265, #329, .T. ) ;
#308 = DIRECTION ( 'NONE',  ( 1.000000000000000000, -0.000000000000000000, -0.000000000000000000 ) ) ;
#309 = PRODUCT_DEFINITION ( 'UNKNOWN', '', #322, #103 ) ;
#310 = VERTEX_POINT ( 'NONE', #158 ) ;
#311 = DIRECTION ( 'NONE',  ( 1.000000000000000000, 0.000000000000000000, 0.000000000000000000 ) ) ;
#312 = EDGE_CURVE ( 'NONE', #212, #212, #195, .T. ) ;
#313 = VERTEX_POINT ( 'NONE', #208 ) ;
#314 = EDGE_LOOP ( 'NONE', ( #125 ) ) ;
#315 = AXIS2_PLACEMENT_3D ( 'NONE', #168, #45, #144 ) ;
#316 = ORIENTED_EDGE ( 'NONE', *, *, #267, .T. ) ;
#317 = FACE_OUTER_BOUND ( 'NONE', #81, .T. ) ;
#318 = EDGE_CURVE ( 'NONE', #290, #290, #92, .T. ) ;
#319 = PRESENTATION_STYLE_ASSIGNMENT (( #216 ) ) ;
#320 = AXIS2_PLACEMENT_3D ( 'NONE', #61, #207, #289 ) ;
#321 = AXIS2_PLACEMENT_3D ( 'NONE', #189, #78, #42 ) ;
#322 = PRODUCT_DEFINITION_FORMATION_WITH_SPECIFIED_SOURCE ( 'ANY', '', #47, .NOT_KNOWN. ) ;
#323 = ADVANCED_FACE ( 'NONE', ( #69, #334 ), #97, .F. ) ;
#324 =( NAMED_UNIT ( * ) PLANE_ANGLE_UNIT ( ) SI_UNIT ( $, .RADIAN. ) );
#325 = DIRECTION ( 'NONE',  ( 0.000000000000000000, 0.000000000000000000, -1.000000000000000000 ) ) ;
#326 = EDGE_CURVE ( 'NONE', #260, #260, #211, .T. ) ;
#327 = FACE_OUTER_BOUND ( 'NONE', #177, .T. ) ;
#328 =( GEOMETRIC_REPRESENTATION_CONTEXT ( 3 ) GLOBAL_UNCERTAINTY_ASSIGNED_CONTEXT ( ( #169 ) ) GLOBAL_UNIT_ASSIGNED_CONTEXT ( ( #164, #324, #295 ) ) REPRESENTATION_CONTEXT ( 'NONE', 'WORKASPACE' ) );
#329 = CIRCLE ( 'NONE', #118, 11.44999999999999929 ) ;
#330 = DIRECTION ( 'NONE',  ( -1.000000000000000000, -0.000000000000000000, -0.000000000000000000 ) ) ;
#331 = DIRECTION ( 'NONE',  ( 0.000000000000000000, 0.000000000000000000, 1.000000000000000000 ) ) ;
#332 = UNCERTAINTY_MEASURE_WITH_UNIT (LENGTH_MEASURE( 1.000000000000000082E-05 ), #7, 'distance_accuracy_value', 'NONE');
#333 = ORIENTED_EDGE ( 'NONE', *, *, #48, .T. ) ;
#334 = FACE_BOUND ( 'NONE', #292, .T. ) ;
ENDSEC;
END-ISO-10303-21;
